среда, 16 февраля 2011 г.

Акустическая гитара.

Я начал играть на акустической гитаре.
Начал как начинают многие: Виктор Цой, Звезда по имени солнце, Am C Dm G. Я не питал к этой песне никаких особых чувств, просто она хороша для начала. Я скачал аппликатуры аккордов и стал медленно играть. Через пару дней занятий по часу в день я мог сыграть эти аккорды более-менее уверенно.
Далее я решил выучить вступление из fade to black, metallica.

|------------------------|------------------------|
|------------------------|------------------------|
|-------0----------------|-------0----------------|
|----4-----4-----4-----4-|----4-----4-----4-----4-|
|-2-----------2-----5----|-0-----------0-----5----|
|------------------------|------------------------|

|------------------------|------------------------|
|------------------------|------------------------|
|-------0----------------|-------2----------------|
|----4-----4-----4-----4|----2-----2-----2-----2-|
|-2-----------2-----5---|-4-----------4-----0----|
|------------------------|------------------------|

Это было достаточно просто. Только четвёртый такт вызвал затруднения, но немного потренировавшись я успевал изменить положение пальцев, зажимая 3 и 4 струны на втором ладу указательным пальцем.
Поскольку эти умения бесполезны для игры на электрогитаре, я начал отрабатывать на акустической гитаре приёмы игры, используемые на электро. Для этого я раздобыл медиатор.
Я начал с пауэр-аккордов(квинты, квинтовые аккорды). Тем более, что я давно хотел выучить рифф из вступления Rock you like a hurricane, Scorpions.

|--------------------------------------------|
|--------------------------------------------|
|---9--9--9--------------2--2-----7---9--9---|
|---9--9--9-----5--5-----2--2-----7---9--9---|
|---7--7--7-----5--5-----0--0-----5---7--7---|
|---------------3--3-------------------------|

В этом риффе не было ничего сложного, поэтому я неплохо отработал пауэр-аккорды, да и рука стала двигаться свободнее. Этот рифф я играл только ударами медиатора вниз, поскольку при ударах вверх медиатор слишком глубоко цеплял струны. В принципе так играть можно, но это не рационально, поскольку делается «холостое» движение вверх.
Затем я решил выучить что-нибудь, для тренировки переменного штриха. Вступление из sterile nails and thunderbowels, silencer вполне подошло, к тому же мне нравилась мелодия.

|-----------------------------------------------------------|
|-----------------------------------------------------------|
|-----------------------------------------------------------|
|---5-----7----7-8-----------------8-----7----5-------------|
|-------------------------8-----5---------------------------|
|-----------------------------------------------------------|

|-----------------------------------------------------------|
|-----------------------------------------------------------|
|-----------------------------------------------------------|
|---5-----7----7-8-------------8---7-----7----5----------|
|-------------------------6---------------------------------|
|-----------------------------------------------------------|

Это всё, что я играл на акустической гитаре, до того как купил электро.
Стоит помнить что на табулатурах шестая струна находится снизу, то есть гриф гитары какбы перевёрнут. Также рекомендую прослушать композицию в оригинале, так как такие табулатуры не дают представления о ритме, или скачать guitar pro и соответствующие табулатуры.